  0
SECTION
  2
HEADER
  9
$ACADVER
  1
AC1009
  9
$INSBASE
 10
339.7715485352674
 20
172.765414652589
 30
0.0
  9
$EXTMIN
 10
339.253781582301
 20
172.765414652589
 30
0.0
  9
$EXTMAX
 10
546.2232759441563
 20
1192.092071331378
 30
0.0
  9
$LIMMIN
 10
0.0
 20
0.0
  9
$LIMMAX
 10
420.0
 20
297.0
  9
$ORTHOMODE
 70
     1
  9
$REGENMODE
 70
     1
  9
$FILLMODE
 70
     1
  9
$QTEXTMODE
 70
     0
  9
$MIRRTEXT
 70
     0
  9
$DRAGMODE
 70
     2
  9
$LTSCALE
 40
1.0
  9
$OSMODE
 70
     0
  9
$ATTMODE
 70
     1
  9
$TEXTSIZE
 40
3.5
  9
$TRACEWID
 40
0.05
  9
$TEXTSTYLE
  7
STANDARD
  9
$CLAYER
  8
ITEM_50
  9
$CELTYPE
  6
BYLAYER
  9
$CECOLOR
 62
   256
  9
$DIMSCALE
 40
1.0
  9
$DIMASZ
 40
2.5
  9
$DIMEXO
 40
1.0
  9
$DIMDLI
 40
8.0
  9
$DIMRND
 40
0.0
  9
$DIMDLE
 40
0.0
  9
$DIMEXE
 40
2.0
  9
$DIMTP
 40
0.1
  9
$DIMTM
 40
0.1
  9
$DIMTXT
 40
3.5
  9
$DIMCEN
 40
2.0
  9
$DIMTSZ
 40
0.0
  9
$DIMTOL
 70
     0
  9
$DIMLIM
 70
     0
  9
$DIMTIH
 70
     0
  9
$DIMTOH
 70
     0
  9
$DIMSE1
 70
     0
  9
$DIMSE2
 70
     0
  9
$DIMTAD
 70
     1
  9
$DIMZIN
 70
     8
  9
$DIMBLK
  1

  9
$DIMASO
 70
     0
  9
$DIMSHO
 70
     0
  9
$DIMPOST
  1

  9
$DIMAPOST
  1

  9
$DIMALT
 70
     0
  9
$DIMALTD
 70
     2
  9
$DIMALTF
 40
25.39999999999999
  9
$DIMLFAC
 40
1.0
  9
$DIMTOFL
 70
     1
  9
$DIMTVP
 40
0.0
  9
$DIMTIX
 70
     0
  9
$DIMSOXD
 70
     0
  9
$DIMSAH
 70
     0
  9
$DIMBLK1
  1

  9
$DIMBLK2
  1

  9
$DIMSTYLE
  2
*UNNAMED
  9
$DIMCLRD
 70
     0
  9
$DIMCLRE
 70
     0
  9
$DIMCLRT
 70
     0
  9
$DIMTFAC
 40
1.0
  9
$DIMGAP
 40
0.09
  9
$LUNITS
 70
     2
  9
$LUPREC
 70
     3
  9
$SKETCHINC
 40
0.1
  9
$FILLETRAD
 40
20.0
  9
$AUNITS
 70
     0
  9
$AUPREC
 70
     3
  9
$MENU
  1

  9
$ELEVATION
 40
0.0
  9
$PELEVATION
 40
0.0
  9
$THICKNESS
 40
0.0
  9
$LIMCHECK
 70
     0
  9
$BLIPMODE
 70
     0
  9
$CHAMFERA
 40
0.0
  9
$CHAMFERB
 40
0.0
  9
$SKPOLY
 70
     1
  9
$TDCREATE
 40
2448783.662112731
  9
$TDUPDATE
 40
2449393.451919791
  9
$TDINDWG
 40
0.0016248843
  9
$TDUSRTIMER
 40
0.0016248843
  9
$USRTIMER
 70
     1
  9
$ANGBASE
 50
0.0
  9
$ANGDIR
 70
     0
  9
$PDMODE
 70
     3
  9
$PDSIZE
 40
2.0
  9
$PLINEWID
 40
0.0
  9
$COORDS
 70
     2
  9
$SPLFRAME
 70
     0
  9
$SPLINETYPE
 70
     6
  9
$SPLINESEGS
 70
     8
  9
$ATTDIA
 70
     1
  9
$ATTREQ
 70
     1
  9
$HANDLING
 70
     0
  9
$HANDSEED
  5
140
  9
$SURFTAB1
 70
     6
  9
$SURFTAB2
 70
     6
  9
$SURFTYPE
 70
     6
  9
$SURFU
 70
     6
  9
$SURFV
 70
     6
  9
$UCSNAME
  2

  9
$UCSORG
 10
0.0
 20
0.0
 30
0.0
  9
$UCSXDIR
 10
1.0
 20
0.0
 30
0.0
  9
$UCSYDIR
 10
0.0
 20
1.0
 30
0.0
  9
$PUCSNAME
  2

  9
$PUCSORG
 10
0.0
 20
0.0
 30
0.0
  9
$PUCSXDIR
 10
1.0
 20
0.0
 30
0.0
  9
$PUCSYDIR
 10
0.0
 20
1.0
 30
0.0
  9
$USERI1
 70
     0
  9
$USERI2
 70
     3
  9
$USERI3
 70
    15
  9
$USERI4
 70
     0
  9
$USERI5
 70
     0
  9
$USERR1
 40
0.0
  9
$USERR2
 40
1.0
  9
$USERR3
 40
0.0
  9
$USERR4
 40
1.0
  9
$USERR5
 40
0.0
  9
$WORLDVIEW
 70
     1
  9
$SHADEDGE
 70
     3
  9
$SHADEDIF
 70
    70
  9
$TILEMODE
 70
     1
  9
$MAXACTVP
 70
    16
  9
$PINSBASE
 10
0.0
 20
0.0
 30
0.0
  9
$PLIMCHECK
 70
     0
  9
$PEXTMIN
 10
1.000000000000000E+20
 20
1.000000000000000E+20
 30
1.000000000000000E+20
  9
$PEXTMAX
 10
-1.000000000000000E+20
 20
-1.000000000000000E+20
 30
-1.000000000000000E+20
  9
$PLIMMIN
 10
0.0
 20
0.0
  9
$PLIMMAX
 10
12.0
 20
9.0
  9
$UNITMODE
 70
     0
  9
$VISRETAIN
 70
     0
  9
$PLINEGEN
 70
     0
  9
$PSLTSCALE
 70
     0
  9
$TREEDEPTH
 70
  3020
  9
$DWGCODEPAGE
  3
undefined
  0
ENDSEC
  0
SECTION
  2
TABLES
  0
TABLE
  2
VPORT
 70
     2
  0
VPORT
  2
*ACTIVE
 70
     0
 10
0.0
 20
0.0
 11
1.0
 21
1.0
 12
1043.117926623094
 22
724.1174483231314
 13
0.0
 23
0.0
 14
7.0
 24
7.0
 15
0.0
 25
0.0
 16
0.0
 26
0.0
 36
1.0
 17
0.0
 27
0.0
 37
0.0
 40
1102.704067341084
 41
1.275675675675675
 42
50.0
 43
0.0
 44
0.0
 50
0.0
 51
0.0
 71
     0
 72
 10000
 73
     1
 74
     0
 75
     0
 76
     0
 77
     0
 78
     0
  0
ENDTAB
  0
TABLE
  2
LTYPE
 70
     2
  0
LTYPE
  2
AUSGEZOGEN
 70
    64
  3
Solid line
 72
    65
 73
     0
 40
0.0
  0
LTYPE
  2
ITEM-STRICHPUNKT
 70
    64
  3
__ . __ . __
 72
    65
 73
     4
 40
3.599999999999999
 49
2.399999999999999
 49
-0.6
 49
0.0
 49
-0.6
  0
ENDTAB
  0
TABLE
  2
LAYER
 70
     6
  0
LAYER
  2
0
 70
     0
 62
     7
  6
AUSGEZOGEN
  0
LAYER
  2
ITEM_50
 70
    64
 62
     7
  6
AUSGEZOGEN
  0
LAYER
  2
ITEM_25
 70
    64
 62
     3
  6
AUSGEZOGEN
  0
LAYER
  2
ITEM_HILFE
 70
     0
 62
     3
  6
AUSGEZOGEN
  0
LAYER
  2
ITEM_INFO
 70
     0
 62
     4
  6
AUSGEZOGEN
  0
LAYER
  2
ITEM_STP
 70
    64
 62
     4
  6
ITEM-STRICHPUNKT
  0
ENDTAB
  0
TABLE
  2
STYLE
 70
     1
  0
STYLE
  2
STANDARD
 70
     0
 40
0.0
 41
1.0
 50
0.0
 71
     0
 42
3.5
  3
iso
  4

  0
ENDTAB
  0
TABLE
  2
VIEW
 70
     0
  0
ENDTAB
  0
TABLE
  2
UCS
 70
     0
  0
ENDTAB
  0
TABLE
  2
APPID
 70
     1
  0
APPID
  2
ACAD
 70
    64
  0
ENDTAB
  0
TABLE
  2
DIMSTYLE
 70
     0
  0
ENDTAB
  0
ENDSEC
  0
SECTION
  2
BLOCKS
  0
ENDSEC
  0
SECTION
  2
ENTITIES
  0
LINE
  8
ITEM_50
 10
419.7715485352674
 20
187.574304378412
 30
0.0
 11
339.7715485352674
 21
187.574304378412
 31
0.0
  0
LINE
  8
ITEM_50
 10
339.7715485352674
 20
187.574304378412
 30
0.0
 11
339.7715485352674
 21
1187.574304378412
 31
0.0
  0
LINE
  8
ITEM_50
 10
339.7715485352674
 20
1187.574304378412
 30
0.0
 11
419.7715485352674
 21
1187.574304378412
 31
0.0
  0
LINE
  8
ITEM_50
 10
419.7715485352674
 20
1187.574304378412
 30
0.0
 11
419.7715485352674
 21
187.574304378412
 31
0.0
  0
LINE
  8
ITEM_50
 10
403.7715485352674
 20
187.574304378412
 30
0.0
 11
403.7715485352674
 21
1187.574304378412
 31
0.0
  0
LINE
  8
ITEM_50
 10
395.7715485352674
 20
1187.574304378412
 30
0.0
 11
395.7715485352674
 21
187.574304378412
 31
0.0
  0
LINE
  8
ITEM_50
 10
355.7715485352674
 20
187.574304378412
 30
0.0
 11
355.7715485352674
 21
1187.574304378412
 31
0.0
  0
LINE
  8
ITEM_50
 10
363.7715485352674
 20
1187.574304378412
 30
0.0
 11
363.7715485352674
 21
187.574304378412
 31
0.0
  0
LINE
  8
ITEM_50
 10
419.7715485352674
 20
1187.574304378412
 30
0.0
 11
339.7715485352674
 21
1187.574304378412
 31
0.0
  0
LINE
  8
ITEM_50
 10
505.7055089911899
 20
187.574304378412
 30
0.0
 11
521.7055089911899
 21
187.574304378412
 31
0.0
  0
LINE
  8
ITEM_50
 10
545.7055089911899
 20
187.574304378412
 30
0.0
 11
545.7055089911899
 21
1187.574304378412
 31
0.0
  0
LINE
  8
ITEM_50
 10
545.7055089911899
 20
1187.574304378412
 30
0.0
 11
505.7055089911899
 21
1187.574304378412
 31
0.0
  0
LINE
  8
ITEM_50
 10
505.7055089911899
 20
1187.574304378412
 30
0.0
 11
505.7055089911899
 21
187.574304378412
 31
0.0
  0
LINE
  8
ITEM_50
 10
529.7055089911899
 20
1187.574304378412
 30
0.0
 11
529.7055089911899
 21
216.739304378412
 31
0.0
  0
LINE
  8
ITEM_50
 10
521.7055089911899
 20
216.739304378412
 30
0.0
 11
521.7055089911899
 21
1187.574304378412
 31
0.0
  0
LINE
  8
ITEM_50
 10
529.7055089911899
 20
187.574304378412
 30
0.0
 11
545.7055089911899
 21
187.574304378412
 31
0.0
  0
LINE
  8
ITEM_50
 10
363.2715485352674
 20
183.074304378412
 30
0.0
 11
363.2715485352674
 21
175.7743043784121
 31
0.0
  0
LINE
  8
ITEM_50
 10
363.2715485352674
 20
175.7743043784121
 30
0.0
 11
358.5035993428353
 21
175.7743043784121
 31
0.0
  0
ARC
  8
ITEM_50
 10
356.7715485352674
 20
176.7743043784121
 30
0.0
 40
2.0
 50
210.0000000000318
 51
329.9999999999825
  0
ARC
  8
ITEM_50
 10
347.7715485352673
 20
174.074304378412
 30
0.0
 40
4.0
 50
25.15066341253579
 51
154.8493365874642
  0
ARC
  8
ITEM_50
 10
356.7715485352674
 20
174.7743043784103
 30
0.0
 40
2.0
 50
30.00000000006082
 51
149.9999999999392
  0
LINE
  8
ITEM_STP
 10
347.7715485352673
 20
207.574304378412
 30
0.0
 11
347.7715485352673
 21
172.765414652589
 31
0.0
  0
LINE
  8
ITEM_50
 10
340.5715485352673
 20
187.574304378412
 30
0.0
 11
340.5715485352673
 21
184.074304378412
 31
0.0
  0
LINE
  8
ITEM_50
 10
343.7715485352673
 20
183.074304378412
 30
0.0
 11
343.7715485352673
 21
187.574304378412
 31
0.0
  0
LINE
  8
ITEM_50
 10
351.7715485352673
 20
187.574304378412
 30
0.0
 11
351.7715485352673
 21
183.074304378412
 31
0.0
  0
LINE
  8
ITEM_50
 10
350.5715485352673
 20
174.2743043784121
 30
0.0
 11
344.9715485352674
 21
174.2743043784121
 31
0.0
  0
LINE
  8
ITEM_50
 10
343.7715485352673
 20
175.4743043784121
 30
0.0
 11
343.7715485352673
 21
175.7743043784118
 31
0.0
  0
LINE
  8
ITEM_25
 10
351.0945485352672
 20
187.574304378412
 30
0.0
 11
351.0945485352672
 21
183.074304378412
 31
0.0
  0
LINE
  8
ITEM_25
 10
344.4485485352672
 20
187.574304378412
 30
0.0
 11
344.4485485352672
 21
183.074304378412
 31
0.0
  0
LINE
  8
ITEM_50
 10
343.7715485352673
 20
175.4743043784121
 30
0.0
 11
351.7715485352673
 21
175.4743043784121
 31
0.0
  0
LINE
  8
ITEM_50
 10
343.7715485352673
 20
175.4743043784121
 30
0.0
 11
344.9715485352674
 21
174.2743043784121
 31
0.0
  0
LINE
  8
ITEM_50
 10
350.5715485352673
 20
174.2743043784121
 30
0.0
 11
351.7715485352673
 21
175.4743043784121
 31
0.0
  0
LINE
  8
ITEM_50
 10
340.5715485352673
 20
184.074304378412
 30
0.0
 11
343.7715485352673
 21
184.074304378412
 31
0.0
  0
LINE
  8
ITEM_25
 10
344.4485485352672
 20
176.300887186213
 30
0.0
 11
344.4485485352672
 21
174.797304378412
 31
0.0
  0
LINE
  8
ITEM_25
 10
351.0945485352674
 20
176.3008871862145
 30
0.0
 11
351.0945485352672
 21
174.797304378412
 31
0.0
  0
LINE
  8
ITEM_50
 10
351.7715485352673
 20
175.7743043784118
 30
0.0
 11
351.7715485352673
 21
175.4743043784121
 31
0.0
  0
LINE
  8
ITEM_50
 10
355.0394977276996
 20
175.7743043784121
 30
0.0
 11
351.3923219333139
 21
175.7743043784121
 31
0.0
  0
ARC
  8
ITEM_50
 10
347.7715485352673
 20
174.074304378412
 30
0.0
 40
4.0
 50
25.15066341253942
 51
154.8493365874605
  0
LINE
  8
ITEM_50
 10
351.3923219333137
 20
175.7743043784121
 30
0.0
 11
355.0394977277069
 21
175.7743043784121
 31
0.0
  0
LINE
  8
ITEM_50
 10
340.2715485352674
 20
175.7743043784121
 30
0.0
 11
340.2715485352674
 21
183.074304378412
 31
0.0
  0
LINE
  8
ITEM_50
 10
344.150775137221
 20
175.7743043784121
 30
0.0
 11
340.2715485352674
 21
175.7743043784121
 31
0.0
  0
LINE
  8
ITEM_50
 10
340.2715485352674
 20
183.074304378412
 30
0.0
 11
363.2715485352674
 21
183.074304378412
 31
0.0
  0
LINE
  8
ITEM_50
 10
419.2715485352674
 20
183.074304378412
 30
0.0
 11
396.2715485352674
 21
183.074304378412
 31
0.0
  0
LINE
  8
ITEM_50
 10
408.150775137221
 20
175.7743043784121
 30
0.0
 11
404.2715485352674
 21
175.7743043784121
 31
0.0
  0
LINE
  8
ITEM_50
 10
419.2715485352674
 20
175.7743043784121
 30
0.0
 11
419.2715485352674
 21
183.074304378412
 31
0.0
  0
LINE
  8
ITEM_50
 10
408.150775137221
 20
175.7743043784121
 30
0.0
 11
404.5035993428278
 21
175.7743043784121
 31
0.0
  0
ARC
  8
ITEM_50
 10
411.7715485352674
 20
174.074304378412
 30
0.0
 40
4.0
 50
25.15066341253579
 51
154.8493365874642
  0
LINE
  8
ITEM_50
 10
419.0394977276997
 20
175.7743043784121
 30
0.0
 11
415.392321933314
 21
175.7743043784121
 31
0.0
  0
LINE
  8
ITEM_50
 10
407.7715485352674
 20
175.7743043784118
 30
0.0
 11
407.7715485352674
 21
175.4743043784121
 31
0.0
  0
LINE
  8
ITEM_25
 10
408.4485485352673
 20
176.3008871862145
 30
0.0
 11
408.4485485352675
 21
174.797304378412
 31
0.0
  0
LINE
  8
ITEM_25
 10
415.0945485352675
 20
176.300887186213
 30
0.0
 11
415.0945485352675
 21
174.797304378412
 31
0.0
  0
LINE
  8
ITEM_50
 10
418.9715485352674
 20
184.074304378412
 30
0.0
 11
415.7715485352674
 21
184.074304378412
 31
0.0
  0
LINE
  8
ITEM_50
 10
408.9715485352674
 20
174.2743043784121
 30
0.0
 11
407.7715485352674
 21
175.4743043784121
 31
0.0
  0
LINE
  8
ITEM_50
 10
415.7715485352674
 20
175.4743043784121
 30
0.0
 11
414.5715485352673
 21
174.2743043784121
 31
0.0
  0
LINE
  8
ITEM_50
 10
415.7715485352674
 20
175.4743043784121
 30
0.0
 11
407.7715485352674
 21
175.4743043784121
 31
0.0
  0
LINE
  8
ITEM_25
 10
415.0945485352675
 20
187.574304378412
 30
0.0
 11
415.0945485352675
 21
183.074304378412
 31
0.0
  0
LINE
  8
ITEM_25
 10
408.4485485352675
 20
187.574304378412
 30
0.0
 11
408.4485485352675
 21
183.074304378412
 31
0.0
  0
LINE
  8
ITEM_50
 10
415.7715485352674
 20
175.4743043784121
 30
0.0
 11
415.7715485352674
 21
175.7743043784118
 31
0.0
  0
LINE
  8
ITEM_50
 10
408.9715485352674
 20
174.2743043784121
 30
0.0
 11
414.5715485352673
 21
174.2743043784121
 31
0.0
  0
LINE
  8
ITEM_50
 10
407.7715485352674
 20
187.574304378412
 30
0.0
 11
407.7715485352674
 21
183.074304378412
 31
0.0
  0
LINE
  8
ITEM_50
 10
415.7715485352674
 20
183.074304378412
 30
0.0
 11
415.7715485352674
 21
187.574304378412
 31
0.0
  0
LINE
  8
ITEM_50
 10
418.9715485352674
 20
187.574304378412
 30
0.0
 11
418.9715485352674
 21
184.074304378412
 31
0.0
  0
ARC
  8
ITEM_50
 10
402.7715485352674
 20
174.7743043784103
 30
0.0
 40
2.0
 50
30.00000000006074
 51
149.9999999999391
  0
ARC
  8
ITEM_50
 10
411.7715485352674
 20
174.074304378412
 30
0.0
 40
4.0
 50
25.1506634125321
 51
154.8493365874678
  0
ARC
  8
ITEM_50
 10
402.7715485352674
 20
176.7743043784121
 30
0.0
 40
2.0
 50
210.0000000000174
 51
329.9999999999681
  0
LINE
  8
ITEM_50
 10
396.2715485352674
 20
175.7743043784121
 30
0.0
 11
401.0394977276994
 21
175.7743043784121
 31
0.0
  0
LINE
  8
ITEM_50
 10
396.2715485352674
 20
183.074304378412
 30
0.0
 11
396.2715485352674
 21
175.7743043784121
 31
0.0
  0
LINE
  8
ITEM_STP
 10
411.7715485352674
 20
207.574304378412
 30
0.0
 11
411.7715485352674
 21
172.765414652589
 31
0.0
  0
LINE
  8
ITEM_STP
 10
525.7055089911901
 20
207.574304378412
 30
0.0
 11
513.6932409746119
 21
207.574304378412
 31
0.0
  0
LINE
  8
ITEM_STP
 10
525.7055089911901
 20
207.574304378412
 30
0.0
 11
525.7055089911901
 21
219.5865723949902
 31
0.0
  0
LINE
  8
ITEM_STP
 10
525.7055089911901
 20
207.574304378412
 30
0.0
 11
537.7177770077684
 21
207.574304378412
 31
0.0
  0
LINE
  8
ITEM_STP
 10
525.7055089911901
 20
207.574304378412
 30
0.0
 11
525.7055089911901
 21
172.9248178390043
 31
0.0
  0
LINE
  8
ITEM_50
 10
519.0055080375271
 20
183.074304378412
 30
0.0
 11
532.4055099448531
 21
183.074304378412
 31
0.0
  0
ARC
  8
ITEM_50
 10
517.737504475869
 20
188.7470903920388
 30
0.0
 40
16.0
 50
311.6056887062136
 51
338.1797900552795
  0
ARC
  8
ITEM_50
 10
533.6735154138599
 20
188.7470903920388
 30
0.0
 40
16.0
 50
201.8202099447204
 51
228.3943112937862
  0
ARC
  8
ITEM_50
 10
519.0055099448758
 20
182.874304378412
 30
0.0
 40
0.2
 50
90.00054641513357
 51
201.8202429859153
  0
ARC
  8
ITEM_50
 10
532.4055099448531
 20
182.874304378412
 30
0.0
 40
0.2
 50
338.1797570140846
 51
90.0
  0
CIRCLE
  8
ITEM_50
 10
525.7055089911901
 20
207.574304378412
 30
0.0
 40
10.0
  0
ARC
  8
ITEM_50
 10
525.7055089911901
 20
207.574304378412
 30
0.0
 40
11.50630756908294
 50
249.6572454763191
 51
290.3427545236808
  0
LINE
  8
ITEM_50
 10
521.7055089911901
 20
184.074304378412
 30
0.0
 11
529.7055089911901
 21
184.074304378412
 31
0.0
  0
LINE
  8
ITEM_25
 10
529.02850899119
 20
184.074304378412
 30
0.0
 11
529.02850899119
 21
183.074304378412
 31
0.0
  0
LINE
  8
ITEM_25
 10
522.3825089911903
 20
184.074304378412
 30
0.0
 11
522.38250899119
 21
183.074304378412
 31
0.0
  0
LINE
  8
ITEM_50
 10
529.7055089911901
 20
198.4175405411133
 30
0.0
 11
529.7055089911901
 21
183.074304378412
 31
0.0
  0
LINE
  8
ITEM_50
 10
521.7055089911901
 20
183.074304378412
 30
0.0
 11
521.7055089911901
 21
198.4044326178952
 31
0.0
  0
ARC
  8
ITEM_50
 10
525.7055099448645
 20
179.7743043784284
 30
0.0
 40
4.000000000000682
 50
228.3943135955485
 51
311.6056910079759
  0
LINE
  8
ITEM_50
 10
528.5055089911901
 20
175.574304378412
 30
0.0
 11
522.9055089911902
 21
175.574304378412
 31
0.0
  0
LINE
  8
ITEM_50
 10
529.7055089911901
 20
176.7226991352788
 30
0.0
 11
528.2915697741151
 21
176.7226991352788
 31
0.0
  0
LINE
  8
ITEM_50
 10
529.7055089911901
 20
176.7226991352788
 30
0.0
 11
528.5055089911901
 21
175.574304378412
 31
0.0
  0
LINE
  8
ITEM_50
 10
522.9055089911902
 20
175.574304378412
 30
0.0
 11
521.7055089911901
 21
176.7226991352788
 31
0.0
  0
LINE
  8
ITEM_25
 10
529.02850899119
 20
177.4107233798522
 30
0.0
 11
529.02850899119
 21
176.0748130932795
 31
0.0
  0
LINE
  8
ITEM_25
 10
522.3825089911903
 20
177.4107252795688
 30
0.0
 11
522.3825089911905
 21
176.0748130932795
 31
0.0
  0
LINE
  8
ITEM_50
 10
529.7055089911901
 20
178.1279158515553
 30
0.0
 11
529.7055089911901
 21
176.7226991352788
 31
0.0
  0
LINE
  8
ITEM_50
 10
521.7055089911901
 20
176.7226991352788
 30
0.0
 11
521.7055089911901
 21
178.1279180011729
 31
0.0
  0
LINE
  8
ITEM_50
 10
523.1194501155554
 20
176.722699135279
 30
0.0
 11
521.7055089911901
 21
176.722699135279
 31
0.0
  0
LINE
  8
ITEM_50
 10
417.2715485352674
 20
1191.574304378412
 30
0.0
 11
342.2715485352674
 21
1191.574304378412
 31
0.0
  0
ARC
  8
ITEM_50
 10
342.2715485352674
 20
1189.074304378412
 30
0.0
 40
2.5
 50
90.0
 51
180.0
  0
LINE
  8
ITEM_50
 10
339.7715485352674
 20
1189.074304378412
 30
0.0
 11
339.7715485352674
 21
1187.574304378412
 31
0.0
  0
LINE
  8
ITEM_50
 10
339.7715485352674
 20
1187.574304378412
 30
0.0
 11
419.7715485352674
 21
1187.574304378412
 31
0.0
  0
LINE
  8
ITEM_50
 10
419.7715485352674
 20
1187.574304378412
 30
0.0
 11
419.7715485352674
 21
1189.074304378412
 31
0.0
  0
ARC
  8
ITEM_50
 10
417.2715485352674
 20
1189.074304378412
 30
0.0
 40
2.5
 50
0.0
 51
90.0
  0
LINE
  8
ITEM_50
 10
545.70550899119
 20
1189.074304378412
 30
0.0
 11
545.70550899119
 21
1187.574304378412
 31
0.0
  0
LINE
  8
ITEM_50
 10
545.70550899119
 20
1187.574304378412
 30
0.0
 11
505.70550899119
 21
1187.574304378412
 31
0.0
  0
LINE
  8
ITEM_50
 10
505.70550899119
 20
1187.574304378412
 30
0.0
 11
505.70550899119
 21
1189.074304378412
 31
0.0
  0
ARC
  8
ITEM_50
 10
508.20550899119
 20
1189.074304378412
 30
0.0
 40
2.5
 50
90.0
 51
180.0
  0
LINE
  8
ITEM_50
 10
508.20550899119
 20
1191.574304378412
 30
0.0
 11
543.20550899119
 21
1191.574304378412
 31
0.0
  0
ARC
  8
ITEM_50
 10
543.20550899119
 20
1189.074304378412
 30
0.0
 40
2.5
 50
0.0
 51
90.0
  0
ENDSEC
  0
EOF
